Encyclopedia  |   World Factbook  |   World Flags  |   Reference Tables  |   List of Lists     
   Academic Disciplines  |   Historical Timeline  |   Themed Timelines  |   Biographies  |   How-Tos     
Sponsor by The Tattoo Collection
List of minor chord shapes for guitar
Main Page | See live article | Alphabetical index

List of minor chord shapes for guitar

This is a partial list of minor chord shapes for the guitar. For more information on reading this list, see tablature.

See also: List of major chord shapes for guitar


Table of contents
1 Cm:
2 Dm:
3 Em:
4 Fm:
5 Gm:
6 Am:
7 Bm:

Cm:

e|-----x------
B|-----1------
G|-----0------
D|-----1------
A|-----3------
E|-----x------

Dm:

e|-----1------
B|-----3------
G|-----2------
D|-----0------
A|-----x------
E|-----x------

Em:

e|-----0------
B|-----0------
G|-----0------
D|-----2------
A|-----2------
E|-----0------

Fm:

e|-----1------      e|-----1------
B|-----1------      B|-----1------
G|-----1------  or  G|-----1------
D|-----3------      D|-----3------
A|-----3------      A|-----3------
E|-----1------      E|-----x------

Gm:

e|-----3------      e|-----x------
B|-----3------      B|-----x------
G|-----3------  or  G|-----3------
D|-----5------      D|-----5------
A|-----5------      A|-----5------
E|-----3------      E|-----3------

Am:

e|-----0------      e|-----8------
B|-----1------      B|-----10-----
G|-----2------  or  G|-----9------
D|-----2------      D|-----7------
A|-----0------      A|-----x------
E|-----x------      E|-----x------

Bm:

e|-----2------      e|-----7------
B|-----3------      B|-----7------
G|-----4------  or  G|-----7------
D|-----4------      D|-----9------
A|-----2------      A|-----9------
E|-----x------      E|-----7------